板検索:
People in the box コピースレ★2 (115)
まとめビュー
1
柴犬[]   投稿日:2012/01/16 11:41:00  ID:9tRgkORX
■オフィシャルHP 
PC
http://www.peopleinthebox.com/
mobile
http://peopleinthebox.com/mobile/

■前スレ・ ピープルのコピー

■兄弟スレ

People In The Box 18 /邦楽グループ板

People In The Box 歌詞解釈 /インディーズ板

SEはJim O'RourkeのAnd I'm Singing

次スレは>950が立てること
立てられない場合は>970
コメント2件


2
ドレミファ名無シド[sage]   投稿日:2012/01/16 11:44:56  ID:qydG0Af6
>1

      ___
   /|∧_∧|
   ||. (・ω・`| 次スレはここか
   ||oと.  U|
   || |(__)J|
   ||/彡 ̄ ガチャ

3
ドレミファ名無シド[sage]   投稿日:2012/01/16 13:01:53  ID:S1OtQSIm

4
柴犬[]   投稿日:2012/01/16 13:57:46  ID:xhIPWkOz
市民の最初

-------------------------
-------------------------
---4---------------------
---4---------------------
-------------------------
---4---------------------

ここは渋谷で見たから間違いないはず。
こっから先わかる人いない?

5
ドレミファ名無シド[sage]   投稿日:2012/01/16 21:26:21  ID:tnx/v7Zy(2)
本スレPart3より

532 :無名さん:2008/10/10(金) 00:32:07 New!!
需要あるかわかりませんが、今日の使用機材を載せときます。
細かい間違いがあると思いますので、補足出来たらよろしくです。

ハタノ使用機材
エフェクター
Fulltone/OCD
BOSS/BDー2
BOSS/MDー2
BOSS/DDー6(?)
BOSS/RVー5(?)
sobbat/FBー3
sobbat/ABー1
Line6/ECHO PARK
Line6/VERBZILLA
KORG/DTー10
Guyatone/AC-105(?)

アンプ
ROLAND/JCー120
FENDER/SUPER SONIC

6
ドレミファ名無シド[sage]   投稿日:2012/01/16 21:26:50  ID:tnx/v7Zy(2)
福井使用機材
エフェクター
BOSS/GEー7
EBS/MULTI COMP
TECH21/BASS DRIVER DI
KORG/DTー10

アンプ
ampeg/SVTー350
キャビの詳細求めます。

---ここまで

7
ドレミファ名無シド[sage]   投稿日:2012/01/17 15:55:01  ID:Ql4kX/yS
FREEDOM/SP-BP-01 Quad Sound-Bass Preamp

8
ドレミファ名無シド[]   投稿日:2012/01/17 22:27:34  ID:qVyJ2M9+(2)
市民
-------------------------
-------------------------
---4---------------------
---4---------------------
-------------------------
---4---------------------


----------------------------------
----------------------------------
---4--2--6--2--4--2--6--2--4------
---4--2--6--2--4--2--6--2--4------
----------------------------------
---4--2--6--2--4--2--6--2--4------


9
柴犬[]   投稿日:2012/01/17 22:29:35  ID:qVyJ2M9+(2)
口の中で〜
-------------------------
---2---------------------
---2---------------------
---2---------------------
-------------------------
---3---------------------

構造主義を〜
-------------------------
---4-6-4-6---------------
----4---4----------------
-------------------------
-------------------------
-------------------------



10
柴犬[]   投稿日:2012/01/18 23:01:53  ID:l4SMKEE/(4)
やっと市民コピーできた
間違ってたから修正版

-----------------------------------------
-----------------------------------------
--4-------4--2--6--2--4--2--6--2--6------
--4-------4--2--6--2--4--2--6--2--6------
-----------------------------------------
--4-------4--2--6--2--4--2--6--2--6------


口の中で〜
-------------------------
---0---------------------
---2---------------------
---0---------------------
---2---------------------
---3---------------------

11
ドレミファ名無シド[sage]   投稿日:2012/01/18 23:06:58  ID:XFLTt37M(5)
最初のジャッ、ジャッは、


? 4
? 4
? 3

? 4

の繰り返しだと思われ

12
ドレミファ名無シド[sage]   投稿日:2012/01/18 23:07:29  ID:XFLTt37M(5)
あれっ、ハテナになっちゃった

上から一弦です、すんませんでした

13
柴犬[]   投稿日:2012/01/18 23:08:54  ID:l4SMKEE/(4)
インサイド〜     隣人は〜
------------------------  --------------------------------------------
--4-6--4-6--------------  ---0------7-9-7-9s-11s-7--------------------
---4----4---------------  ---2--7-9-----------------------------------
------------------------  ---0--------------------------7-9-7---------
------------------------  ---2----------------------7-9-------5s-7s-5-
------------------------  ---3----------------------------------------
コメント1件

14
ドレミファ名無シド[sage]   投稿日:2012/01/18 23:09:17  ID:XFLTt37M(5)
書き直しました

2-4
3-4
4-4
6-4
と、
2-4
3-4
4-3
6-4

の繰り返しだと思いますた
連投すみません
コメント1件

15
柴犬[]   投稿日:2012/01/18 23:15:43  ID:l4SMKEE/(4)
>14
弦は何弦なの?

16
ドレミファ名無シド[sage]   投稿日:2012/01/18 23:17:47  ID:XFLTt37M(5)
弦-フレット

っていう表記のつもりです
わかりにくくてすみません
コメント1件

17
柴犬[]   投稿日:2012/01/18 23:29:41  ID:l4SMKEE/(4)
>16
-------------------------
---4--4------------------
---4--4------------------
---4--3------------------
-------------------------
---4--4------------------

てことか。
これっぽいね確かに
コメント1件

18
ドレミファ名無シド[sage]   投稿日:2012/01/18 23:37:22  ID:XFLTt37M(5)
>17
そうそう!
違ってたらすんませんです

19
柴犬[]   投稿日:2012/01/20 09:58:51  ID:LhLjJ0yL
保守

20
ドレミファ名無シド[sage]   投稿日:2012/01/20 23:32:44  ID:DFEdDZWP
>13
インサイド〜は
--------------------------
--4------4----------------
----4------4--------------
------3------3------------
--------------------------
--------------------------
自分で弾いた感じ、こうかなと思った
コメント1件

21
柴犬[]   投稿日:2012/01/21 01:29:39  ID:Rd+DHYLn(2)
>20
1オクターブ違うから好きなほうでいいかも。
結構音が高く聞こえたから俺は6/2って弾いてる。
新曲の沈黙コピー少ししたから書くわ。

22
柴犬[]   投稿日:2012/01/21 01:33:50  ID:Rd+DHYLn(2)
沈黙

頭の方
-----------------------------------------
--3---3---3--5------3s5------------------
---0-0-0-0-0--7646s7---------------------
----4---4---4----------------------------
-----------------------------------------
-----------------------------------------

23
ドレミファ名無シド[sage]   投稿日:2012/01/23 03:47:59  ID:mBMbd6of
バンスコ出さんのかね

24
ドレミファ名無シド[sage]   投稿日:2012/01/23 12:56:24  ID:aJ9A3Btu
誰かニムロッド採った人いる?
コメント1件


25
ドレミファ名無シド[]   投稿日:2012/01/24 00:55:21  ID:NWjPWRFh
>24
歌が終わった後は
---
---
---
-5-
-3-
-3-
このおさえかただと思う
コメント1件

26
ドレミファ名無シド[sage]   投稿日:2012/01/24 16:00:13  ID:sYG5yNNl
>25
ありがとう! 自分でもトライしてみる。

27
ドレミファ名無シド[sage]   投稿日:2012/01/27 21:54:48  ID:qIN8uqTL
親愛なるニュートン街の
3カポ

-10-10- ---------
-8--7-- ---3----3
-7--7-- ---0----0
------- ---------
------- 2p3------
------- -----0p2-

28
ドレミファ名無シド[]   投稿日:2012/01/28 13:44:52  ID:CeGV/iFN
Peopleのカバーでライブしてくるわ
コメント1件

29
ドレミファ名無シド[sage]   投稿日:2012/01/28 13:49:54  ID:Nxyi8WjB
ぷっ

30
ドレミファ名無シド[sage]   投稿日:2012/01/28 14:34:55  ID:kb/kb7bn
>28
^^;

31
ドレミファ名無シド[sage]   投稿日:2012/01/29 13:09:56  ID:wcseVp0C
水曜日、走れーからが意味わからん

32
ドレミファ名無シド[]   投稿日:2012/02/08 15:01:59  ID:3EabZ9Lz
また何故か見えなくなってね?

33
ドレミファ名無シド[]   投稿日:2012/02/10 22:56:28  ID:X2ykrsW9
技法(イントロ)

-------------------------
-2-2-2--------12-10-12-10
-2-2-2-2-2-2-9-----9-----
-------2-2-2-------------
-------------------------
-------------------------

34
ドレミファ名無シド[sage]   投稿日:2012/02/17 14:40:45  ID:NV+xjeda
新市街ソロ

-2-------252---25 7107-575-252--2-
-2---353-25253-25 7107-575-252-333
---24242----42--- -------------2-2
---24------------ ----------------
----------------- ----------------
----------------- ----------------

-2-------252---25 7-10-10-7-14-17-141210
-2---353-25253-25 7-10-10-7-14-17-141210
---24242----42--- ----------------------
---24------------ ----------------------
----------------- ----------------------
----------------- ----------------------

とってみたがどことなく違う気がする
やっぱ単音弾きでエフェクトかけるのかな(・ω・`)
コメント1件

35
ドレミファ名無シド[sage]   投稿日:2012/02/17 15:04:51  ID:8pdpHMI1
ライブ映像見るとたぶん短音弾きでやってる
あの音はファズ踏んでるんじゃないかな

みんな一音半上げチューニングってどうやってやってる?

36
ドレミファ名無シド[sage]   投稿日:2012/02/17 15:23:42  ID:DvzsVwJa
カポ

37
ドレミファ名無シド[sage]   投稿日:2012/02/17 16:34:40  ID:EKP9AwTE
>34
ハイポジでやると楽よ

38
ドレミファ名無シド[sage]   投稿日:2012/02/18 01:37:50  ID:z1+DtkK+
波多野のverbzillaのつまみってどうなってるんだ
octモードなのは分かるけど、レスポンスが遅くて日曜日の0:20あたりのフレーズが
波多野がやってるみたいにならん
他の方法で出してるかとも思ったけど音はどう考えてもoctモードのそれだし…
コメント1件

39
ドレミファ名無シド[sage]   投稿日:2012/02/19 17:25:50  ID:NSRRyvbf
>38
あれはワーミーとディレイの後に歪み
コメント1件

40
ドレミファ名無シド[sage]   投稿日:2012/02/21 00:52:32  ID:74STKr7N
>39
サンクス
ワーミー持ってねえorz

41
ドレミファ名無シド[sage]   投稿日:2012/02/21 11:41:30  ID:2cG/iN/l
俺はピッチシフタ―で代用

42
ドレミファ名無シド[sage]   投稿日:2012/02/22 01:33:27  ID:ksx6SLwk(2)
コツは和音不対応のでやること
コメント1件

43
ドレミファ名無シド[sage]   投稿日:2012/02/22 03:39:41  ID:V3DuQM+a(2)
>42
どういうこと?どう変わる?
コメント1件

44
ドレミファ名無シド[sage]   投稿日:2012/02/22 13:31:03  ID:ksx6SLwk(2)
>43
音が濁る。
和音対応のピッチシフターとかでやると分かるけど、
綺麗過ぎて波多野らしさが出ない。
日曜日のイントロとか分かり易いと思うけど。

コメント1件

45
ドレミファ名無シド[]   投稿日:2012/02/22 21:19:56  ID:+TDuGfbn
スゲー
よくそんなんわかるな。

ユリイカコピーした人いない?なんかカチッとはまる場所が見つからん。


46
ドレミファ名無シド[sage]   投稿日:2012/02/23 00:05:52  ID:V3DuQM+a(2)
>44
音が濁るけど綺麗過ぎる?
コメント1件

47
ドレミファ名無シド[sage]   投稿日:2012/02/23 00:51:10  ID:xd4Br+vi
>46
あぁごめん分かりにくかった。
音が濁るのが良いってこと。

48
ドレミファ名無シド[sage]   投稿日:2012/03/04 01:45:17  ID:nz41+RX/
□完璧な一音半上げチューニング講座□

まずチューナーを二音下げ(♭♭♭♭)に設定します。

そうすると二弦以外はノーマルチューニングで三フレット、
つまり一音半上げの音で合うようになるので合わせます。

次にチューナーを二音半下げ(♭♭♭♭♭)の設定にします。

するとあら不思議!二弦が合うようになるのでそちらも合わせましょう。

これであなたのギターも一音半上げ変態チューニングです。

※当然テンションはキツくなるので、ネックの反りには注意。

49
ドレミファ名無シド[sage]   投稿日:2012/03/04 22:54:22  ID:zwIvnp+/
ありがとう

50
ドレミファ名無シド[sage]   投稿日:2012/03/20 04:11:20  ID:6qwfn82A
Aliceの最初のベースわかる人いる?

採ってみたけど自信がない
半音下げで
1 -----8--------- -----6-------- -----9---------
2 -------11-8---- -------9-6---- -------12-9----
3 -----------10-8 ----------8-6- -----------11-9
4 --------------- -------------- ---------------
コメント1件

51
ドレミファ名無シド[]   投稿日:2012/03/26 19:39:10  ID:GUMm5DBv
ニムロッド 3カポ サビ

-3---- -3------
-3---- -0------
-0---- -0------
-0---- -2------
-3---- -2------
------ -0------

コードはわかるんだけど
アルペジオがどうなってんのか全くわからない。
もしかして音源ではアコギ2本使ってんのかな。
誰かわかる人いません?
コメント1件

52
ドレミファ名無シド[sage]   投稿日:2012/03/26 22:15:48  ID:u8eH7Qsn
>50

1 -----8-6-5----- -----6-5------- -----9-8------- ------
2 -----------6--- ---------6----- ---------9-6--- ------
3 -------------8- -----------8-6- -------------6- ------
4 --------------- --------------- --------------- ----

俺がやったらこうなった

53
ドレミファ名無シド[sage]   投稿日:2012/03/28 15:20:37  ID:0nxExzJt
>51
サビ前までなら

ママ〜 でもどうせ〜
------------------------------- ----------------------------------
-1--1-0-----3--3-3-----0-3-6-6- -3-3-3-3-5-5-7-7-8888333355557777-
---0--0--0----0--0--0----2-5-5- -0-0-0-0-0-0-0-0-0000000000000000-
--2---0-0-0--0-----0-0-----3--- -000000000000000------------------
-0----------1----2-----3-----3- -----------------7777222233335555-
-------------------------3----- ----------------------------------

みて〜
-------
-1-0-3-
---0-2-
---0-0-
-0---0-
-------

こんな感じかと。

54
ドレミファ名無シド[]   投稿日:2012/04/05 01:29:00  ID:TS0AaMXd
今更ながら火曜日(イントロ)
-10------8-8-------------
-8--8-10-7-8-------------
----7-7------------------
-------------------------
-------------------------
-------------------------

パソコンも規制されてるからシベリアの適当なスレに書き込んで
それを携帯でコピペしてるわ。
このフレーズはDVDから拾ったからほぼ間違いないはず。

55
ドレミファ名無シド[]   投稿日:2012/04/22 12:45:53  ID:SS6cyHLl(3)
たぶん誰もコピーしてないだろうけどNew Life,Skyhead
動画の音声悪すぎてコピーしづらい・・ほんとCD音源聴いてみたいなぁ

〜 ゆうべ〜夢を見た
-××---- ------------------------
-××3-3- 111111111000000000------
-××4-40 000000000444555555555444
-××5--- 333333000000555555000000
-××5-53 333333222---000000333---
-××---- ---------333------000333

どんなふうに見ても〜似ていた〜
-----------------------×-
-1111111110000000000---×3c
-0000000004445555555---×3c
-3333330000005555555---×-
-333333222---0000000---×-
----------333----------×-

この後のジャカジャカの部分が全然わからない;
コメント1件

56
ドレミファ名無シド[]   投稿日:2012/04/22 12:55:25  ID:SS6cyHLl(3)
顔覗きこむ そこ
-------------------------
-------------------------
---545---------544-7-----
--3------32-2-0---5--7-9-
-3------3--3-0-----------
-------1-----------------

には 底なしの井戸
---------------------------------
----------------------------------
-------------------7--7-7---7----
---99---------7----7-----
-7-------87---78-----------
--8--------8-------------------
コメント1件

57
ドレミファ名無シド[]   投稿日:2012/04/22 12:56:29  ID:SS6cyHLl(3)
もしコピーしてる人がいたらご教授お願いします

58
ドレミファ名無シド[sage]   投稿日:2012/04/26 23:36:10  ID:NyH2OAlO
ついにverbzilla買ってしまった…
すごくいい

59
ドレミファ名無シド[sage]   投稿日:2012/05/01 09:44:54  ID:Gg74ZGEQ
ペパトリとか弾きたいね

60
ドレミファ名無シド[]   投稿日:2012/05/09 11:31:48  ID:Kivn1cKP
JFK空港、日曜日、笛吹き男のtab作ったけど需要あるかな
コメント2件

61
ドレミファ名無シド[sage]   投稿日:2012/05/09 18:28:47  ID:yQHZE5Ab
ないわけないだろ頼む

62
ドレミファ名無シド[sage]   投稿日:2012/05/09 18:47:21  ID:bd+sHkTn
お願いします!

63
柴犬[]   投稿日:2012/05/10 01:33:29  ID:D6FqeULO
>55
>56
そのレスが気になって俺も毎日見てるわwwww
チューニングもカポ無し1音半(∩゚∀゚)∩ageの波多野チューニングにしてしまったわwww

んでサビになんのかな?

祝福の歌を歌え今〜のあたりは映像見る限り
-------------------------
--10---10--8---7---------------
--11---11--0---0---------------
-----------0---0---------------
-------------------------------
--10---9---7---5---------------
っぽく動いてるんよな

あと小ネタでソロの後半で歌とギターのユニゾンは
-------------------------------
------4-5-4--------------------
--4-6-------6-4-3-4------------
-------------------------------
-------------------------------
-------------------------------
ううううううう〜う〜のとこな
コメント1件

64
ドレミファ名無シド[sage]   投稿日:2012/05/10 21:33:57  ID:14vv/2PG(2)
>63
おーありがとう(T_T)
俺も1音半上げにしたくてジャガー買ったんだけど、結局怖くてカポ3ですw
波多野さんの手をじっと見てちょっとずつ解釈してますw

別の街〜
---××-------------------××-------
-3-××-----------------3-××-------
-0-××-s--------0----0-0-××-s-----
-5-××9--5-----5-××9
-5-××9-7------5-××9
---××78 8 8-------------××78 8 8-
コメント1件

65
ドレミファ名無シド[]   投稿日:2012/05/10 22:20:40  ID:otWjzzpX
>60
http://www1.axfc.net/uploader/He/so/362310

にzipであげました。TuxGuitarで読み込んで使って下さい

笛吹きのサビとか自信ないので間違ってたら教えてくれると嬉しい
コメント3件

66
ドレミファ名無シド[sage]   投稿日:2012/05/10 22:30:07  ID:14vv/2PG(2)
>65
いただきました!
たまらん・・ありがとう・・
コメント1件

67
ドレミファ名無シド[sage]   投稿日:2012/05/10 23:26:01  ID:QLTLjx9R
>65
ペロペロ

68
ドレミファ名無シド[]   投稿日:2012/05/11 08:10:10  ID:F4Zt4VA+
>66,67

いえいえ 雰囲気だけのコピーなんでどんどん修正して下さい

時間取れたらどこでもないところの耳コピしようかな
コメント1件

69
ドレミファ名無シド[sage]   投稿日:2012/05/11 15:18:42  ID:pFQI1CU9
>68
ペロペロ

70
ドレミファ名無シド[sage]   投稿日:2012/05/12 01:29:02  ID:sg+7ZXUq
>65
ありがとう!

71
ドレミファ名無シド[sage]   投稿日:2012/05/18 10:40:11  ID:rRgZbCXr
cut oneの火曜日の最後の部分ファズの音と普通の音が2つ聞こえるけど、あれは原音とエフェクト音混ぜてるのか二台のアンプで鳴らしてるかどっちだろう?

やっぱりあの壁みたいな音はファズファクトリーかな?

72
ドレミファ名無シド[sage]   投稿日:2012/05/18 13:51:50  ID:q9LkAON7
歪ませた音(つまりノイズが出る)の後にゲインの高い歪みエフェクタを繋げてオンにすると、
前段のノイズが増幅されてああなるんだと思う
ハタノの使用機材は知らんけど、たぶんファズ系

bossのMD-2なんかをゲイン上げて使うとかなり近い音が出るよ
ノイズの洪水に加えて、ギター弾けばその音もちゃんと出る

73
ドレミファ名無シド[sage]   投稿日:2012/05/18 22:01:15  ID:5AQu/UOt
最初の数小節でファズをBOSSのディレイのSOSって機能でループさせてから、
ファズ切ってフレーズ弾いてるんじゃないかな。
なんのファズかは分からん。
この前のツアーのボードでは、ファズはsobbatだけでファズファク入ってなかったね。

74
柴犬[sage]   投稿日:2012/05/25 10:42:33  ID:KkX+ZdH1
>64
ジャガーなら一音半上げ簡単じゃね?
ヘッド側の巻き数を少なくして俺は弦を張ったら上手くいった。
ゲージはノーマルチューニングだったら11-52のガチガチを張ってたから
08-48にしてヘッド巻き数減らして対応した。
だからあんまり弦が張ってるって気がしてない。
コメント1件

75
ドレミファ名無シド[sage]   投稿日:2012/06/02 17:38:56  ID:Z5Bu07+h
>74
なるほど、気が向いたらやってみるわ!

76
ドレミファ名無シド[sage]   投稿日:2012/06/12 14:22:44  ID://B00q5A
さあて気が向くかな?

77
ドレミファ名無シド[]   投稿日:2012/07/16 22:34:39  ID:yyl/NzNv
東京の歌のリズムどうなってんの…
ギターとベースならもう少しで採譜終わるのに未だにボーカルがわからない

78
ドレミファ名無シド[]   投稿日:2012/07/25 13:28:05  ID:L3mIgTYL
このスレ急に過疎ったな

>60です。日曜日のTABに間違いがあったので修正(46小節目、69小節目)

あとレントゲンのコピー出来たのでそれもこちらに上げておきます
精度はそこそこだと思う

http://www1.axfc.net/uploader/He/so/368981

まとまった時間がとれそうなのでどこでもないところ、東京、鍵盤のない、土曜日も採譜するつもり
需要があればアップします
コメント3件

79
ドレミファ名無シド[]   投稿日:2012/07/25 19:55:23  ID:P3Bk2z1f
>78
愛してる

80
ドレミファ名無シド[sage]   投稿日:2012/07/25 23:32:42  ID:uJGpU2yH
>78
レントゲンも鍵盤もあなたも好きです

81
ドレミファ名無シド[sage]   投稿日:2012/07/26 01:55:41  ID:briCv48q
>78
神かよ

82
ドレミファ名無シド[]   投稿日:2012/07/26 16:27:36  ID:pU1NLol5
照れるからやめてくれw

土曜日はもう出来たんだけど、他の曲も一度にまとめてアップした方がいい?

83
60[]   投稿日:2012/07/27 22:02:15  ID:E6o/XrOz
あんまり時間かからなそうだし、連投を避ける為にも一度にアップしたいと思います

今の所どこでもないところが完成、東京は70%完成、鍵盤は30%完成ってところです

苦戦するようだったら先に2曲だけ上げておきます


あと細かいけど笛吹き男の訂正です。サビの4番目のコード、3弦1フレット押弦ですのでダウンロードした人は加えておいて下さい

84
ドレミファ名無シド[sage]   投稿日:2012/07/29 00:59:39  ID:LJpAewn7
期待

85
60[]   投稿日:2012/07/29 10:01:21  ID:wUAsgNw9(2)
アップしておきました。
http://www1.axfc.net/uploader/Sc/so/366004

各曲の補足点をまとめたテキストを入れておいたので、TABを開く前に読んで下さい
ベースは全て半音下げです
コメント3件

86
60[]   投稿日:2012/07/29 15:46:31  ID:wUAsgNw9(2)
東京で27〜32小節のアルペジオ思いっきり間違ってたので修正しました。こちらです

http://www1.axfc.net/uploader/Sc/so/366074

87
ドレミファ名無シド[]   投稿日:2012/07/30 11:39:46  ID:Z+il2+De
>85-86
ベースで和音出てくるところ助かる
ありがとう

88
ドレミファ名無シド[sage]   投稿日:2012/07/31 08:01:30  ID:tN1AlyRD
やるじゃん

89
ドレミファ名無シド[sage]   投稿日:2012/07/31 20:44:16  ID:Epm61Bgx
>85
ありがとー!

90
60[]   投稿日:2012/08/03 09:26:15  ID:fVRqhbJM
>85でアップした鍵盤の45小節目の最後を食って入る46小節目のコード訂正です
--0--  --0----
--8--  --7----
--7-- →--6----
--0--  --0----
-----  -------
--7--  --7----

他の部分は割と合ってるみたいなので鍵盤はこれで大丈夫だと思う
しかしどこでもないところのBメロが所々違和感あるなあ…誰か訂正してくれ…


91
ドレミファ名無シド[sage]   投稿日:2012/08/06 23:44:05  ID:gWc+I0vr
ライブ映像見ながら水面上のアリアをコピーしようとしてるけど、
素人の自分には時間掛かりそうだ・・

92
ドレミファ名無シド[sage]   投稿日:2012/10/17 19:35:12  ID:KB7DRdUu
旧市街のベース難しすぎる

93
ドレミファ名無シド[sage]   投稿日:2012/10/30 02:50:43  ID:5S9jM0eD
スルツェイ弾きたいです…

94
ドレミファ名無シド[sage]   投稿日:2012/11/03 21:08:11  ID:KrDo/RN+(2)
 君が最  初に笑う    秘密を
--0------0------0-----0-----0------0------0-----0---0---0---
--1------3------6-----3-----1------3------8-----8---8---3---
--0------0------0-----0-----0------0------9----10---9---0---
--3------2------0-----0-----3------2-----10----10--10---0---
--3------3------5-----2-----3------3------------------------
--------------------------------------------------------

95
ミスった[sage]   投稿日:2012/11/03 21:15:31  ID:KrDo/RN+(2)
スルツェイ サビ
1音半あげ

 君が最  初に笑う    秘密を見せて
--0------0------0-----0-----0------0------0-----0---0---0---
--1------3------6-----3-----1------3------8-----8---8---3---
--0------0------0-----0-----0------0------9----10---9---0---
--3------2------0-----0-----3------2-----10----10--10---0---
--3------3------5-----2-----3------3------------------------
------------------------------------------------------------

見えない手に〜
--0------0------0-----0-----0------0---0---0-----0---0----
--1------3------6-----3-----1------3---1---0-----8---8----
--0------0------0-----0-----0------0---0---0----10---9----
--3------2------0-----0-----3------2---2---0----10--10----
--3------3------5-----2-----3------3---3---2--------------
-------------------------------------------3--------------

参考動画: http://www.youtube.com/watch?v=mC0aUKpda80
イントロ、Aメロは http://www16.atwiki.jp/copypitb/pages/44.html
コメント1件

96
ドレミファ名無シド[sage]   投稿日:2012/11/05 11:24:13  ID:kGKNOsDq
>95
ああああありがとうございます!!!

まだギター初めて一年もなくて耳コピとか無理ゲだったんで嬉しいです!

97
ドレミファ名無シド[sage]   投稿日:2012/11/05 18:12:16  ID:kbD4vI1l
まとめwikiの存在を忘れていた

98
ドレミファ名無シド[sage]   投稿日:2012/11/07 23:38:02  ID:Lez854Ys
今までマルチでやってて、
ピープルのコピー始めるにあたってコンパクト揃えていきたいんですが、
何から買っていけば大まかに音近づくでしょうか・・・?
とりあえずOCD、BD-2、Verbzilla買おうと思うんですが、
こっち先に買った方が良いとかいうのあったらどうか教えてください。

曲は月曜日と笛吹き男をやるつもりです

99
ドレミファ名無シド[sage]   投稿日:2012/11/08 00:09:37  ID:OitEvcix
その二曲なら、あとはファズ系の歪みがあれば間に合うんじゃないだろうか
轟音パートの洪水みたいな音出すのにファズは必須
俺はMD-2が良い感じだと思うけど、試奏して自分の耳で確かめるべし

100
ドレミファ名無シド[sage]   投稿日:2012/11/09 15:14:17
100

101
ドレミファ名無シド[sage]   投稿日:2012/11/14 21:10:22  ID:3KnO1egj
FB-4かFB-3のオクターブモードが必須だね

102
ドレミファ名無シド[sage]   投稿日:2012/11/21 13:08:19  ID:msi83MAj
s

103
ドレミファ名無シド[sage]   投稿日:2012/11/26 22:32:48  ID:wOPFIOlh
チューリップ 対位法の一例
ラソラ 面倒だからこれ2回繰り返しでおk

104
ドレミファ名無シド[]   投稿日:2013/01/16 06:51:52  ID:I6TcKj+G
ありがとうございました

105
ドレミファ名無シド[sage]   投稿日:2013/03/13 00:42:35  ID:4lwZs/eB
ハタノの足元modtoneあったけど何?

106
ドレミファ名無シド[sage]   投稿日:2013/03/16 18:00:04  ID:kRHNXL1F
モッドはクリーンブースターだろ
昔からボードにあるよ

107
ドレミファ名無シド[sage]   投稿日:2013/03/20 09:01:11  ID:1otBd8RU
エフェクター買うならどれから買うといい?音のキモはOCDかな?

108
ドレミファ名無シド[sage]   投稿日:2013/04/23 21:18:56  ID:m2seOxMg
.

109
ドレミファ名無シド[]   投稿日:2013/05/06 22:06:53  ID:KSSTnm02
失業クイーンのサビとラストサビ前がいまいちわからない…

110
ドレミファ名無シド[]   投稿日:2013/07/24 18:08:26  ID:3ai4rdmv(3)
八月のアウトロってもう出てた?

1:--------8--6-----------------------------------------------------------6--
2:----------------6----9--8-6-8------------------------8-------8-----6--
3:----8---------------------------8---------10--8--------8-10-------7--
4:------8--8--8-------------------8--10-----------8--------------8--8--
5:------------------------------------------------------------------------8--
6:------------------------------------------------------------------------8--

111
ドレミファ名無シド[]   投稿日:2013/07/24 18:10:34  ID:3ai4rdmv(3)
ミスった

1:--------8--6------------------------------------------------6--
2:----------------6----9--8-6-8------------------8------8-----6--
3:----8-------------------------8-------10--8------8-10-------7--
4:------8--8--8-------------------8--10-------8------------8--8--
5:------------------------------------------------------------8--
6:------------------------------------------------------------8--

112
ドレミファ名無シド[]   投稿日:2013/07/24 18:12:29  ID:3ai4rdmv(3)
またミスった

最後の6弦6フレットや・・・

113
ドレミファ名無シド[sage]   投稿日:2013/08/29 07:09:56  ID:dooWnblM
.

114
ドレミファ名無シド[sage]   投稿日:2013/09/01 22:26:18  ID:wumjKr7e
新譜でるのに過疎ね

115
ドレミファ名無シド[sage]   投稿日:2013/09/03 19:08:42  ID:gvKmX5nC
出てないものはコピーできないからな。
更新情報
・スレッド一覧ページで過去ログのタイトル検索・一覧表示ができるようになりました(2016/1/20)
NGワード登録
登録する
スレッド内検索

楽器・作曲板 タイトル検索

このスレッドが人気です(実況系)
激レアさんを連れてきた。★4 (617)テレ朝実況
THE NEWS α (583)フジ実況
月曜から夜ふかし★1 (503)NTV実況
しゃべくり007SP★7 (918)NTV実況
もしかしてズレてる?【藤井リナが3年ぶりにTV登場!▼愛内里菜改名&爆弾告白】★2 (896)フジ実況
AI−TV (586)フジ実況
NEWS ZERO 3 (279)NTV実況
クローズアップ現代+「中国 再エネが日本を飲み込む!?」 (749)NHK実況
このスレッドが人気です(ニュース系)
【北海道・松前町】北朝鮮船に「第854部隊」 島は荒らされ放題 「金目のもの全部ない!」 食べ残しのホッケをとった跡 生活の跡も…★2 (983)ニュー速+
【北海道・松前町】北朝鮮船に「第854部隊」 島は荒らされ放題 「金目のもの全部ない!」 食べ残しのホッケをとった跡 生活の跡も… (1001)ニュー速+
【相撲】日馬富士、起訴猶予へ…モンゴル力士軍団の闇、ビール瓶より危険だった凶器★2 (924)音楽・芸能ニュース
【大相撲】<日馬富士の長女にイジメ>横野リポーターが涙 ネット「泣きたいのは貴ノ岩」 (651)音楽・芸能ニュース
【北朝鮮情勢】菅官房長官 「邦人の安全に影響ない」「韓国への渡航や退避の危険情報出す状況ではない」★2 (965)ニュー速+
【柔道】「もう悪人でいい」内柴正人、フジテレビ独占インタビュー 「被害女性とは合意」主張は曲げず (1001)音楽・芸能ニュース
【社会】「土地は捨てられるのか」 鳥取県の男性、国を相手に実験的訴訟 島根・安来市 (797)ニュー速+
【相撲】日馬富士、起訴猶予へ…モンゴル力士軍団の闇、ビール瓶より危険だった凶器 (1001)音楽・芸能ニュース
楽器・作曲板の人気スレ
【9倍音も12倍音も】Kelly SIMONZ 50【助六】 (147)
【鹿浜一の悪】Kelly SIMONZ 49【助六】 (1001)
親父になってギター始めたor再開した人 23 (963)
【続きは有料】Hidenori Part 10【速弾き世界3位】 (69)
【チューブ信者】VS【モデリング信者】 29回戦 (707)
Fractal Audio Systems総合スレ (395)
おまえらギター何本買えば気が済むんだ!90本目 (102)
けいおんでギターを始めて挫折した俺が再開するスレ (582)
どうでもいいことばかり報告するスレ 55レポ目 (172)
【ドラム】ドラマーの溜まり場30打目【雑談スレ】 (212)
♪相対音感を鍛えるスレ〜歌うように弾きたい♪ (489)
◆◆ Re:アイバニーズのスレ ◆◆ (213)
■ ジミ・ヘンドリックスってどこが凄いの?w 3■ (733)
┫CRAZY┨布袋寅泰の音について語る 31┠GUITAR┣ (437)
歪み系エフェクター総合スレ 104台目 (241)
Gibson Custom Historic/True Historic 総合9 7005 (142)
【クレーマー】Hidenori Part 9【世界3位】 (1001)
自宅練習に最適なアンプ84Ω (322)
【安ギター】フォトジェニ・レジェ、ブリッツ他139 (168)
【age推奨】ギター総合質問スレ 264 (646)
テレキャスター総合 《Telecaster》Part17 (302)
島ノ内未来は5000万円返済してやれ。 (952)
歪み系エフェクター総合スレ 105台目(ワッチョイ) (108)
【ダンカン】Seymour Duncan総合スレSH-30【OUTRAGE】 (368)
【Fender】フェンダージャパン総合Part71 (512)
/( Gibson ギブソン SG Part63 )\ (783)
BOSS GTシリーズ GT-36 (769)
何故機材が少ない時代のギタリストの方が個性があるのか (996)
このサイトについて
このサイトは2ちゃんねるからデータを取得し、表示するサービスです。
画像のインライン表示機能について
画像のURLの後ろにある[画像をインライン表示]をクリックすると、URLの下に表示します。
表示される画像は横幅100pxに縮小されていて、クリックすると原寸で表示します。
このサイトの特徴
1)スレッド内検索ができます
2)レス(「>>1」など)のポップアップができます
3)不適切な言葉を含む投稿を表示しません
4)ページ内で画像を直接表示できます
5)2ch他スレッドへのリンクはタイトル・板名つきでリンクします
6)すっきりとしたデザインで表示します
7)最新スレや前スレをチェック・一覧表示します
8)NGワード機能の搭載でイヤな言葉が目に入りません
9)荒らしを自動チェックします
10)スレッド内・同一IDの書き込みだけ表示できます
11)レスの返事をレスされた発言の下に表示する「まとめビュー」が利用できます
12)シリーズ化したスレッドの一覧を表示します
13)最新のスレッドがある場合はお知らせします
削除について
こちらをご覧ください
機能要望について
現在機能要望受付中です。
問い合わせについて
こちらのページからどうぞ
広告


首都圏の方、ソフトバンク光オススメですよ


このサイトは2ch.scからデータを取得・表示しています。削除などについてはこちらをご覧ください。 アクセスモード: